  0
SECTION
  2
HEADER
  9
$ACADVER
  1
AC1015
  9
$ACADMAINTVER
 70
     6
  9
$DWGCODEPAGE
  3
ANSI_1254
  9
$INSBASE
 10
0.0
 20
0.0
 30
0.0
  9
$EXTMIN
 10
0.0
 20
0.0
 30
0.0
  9
$EXTMAX
 10
279.4
 20
215.9
 30
0.0
  9
$LIMMIN
 10
0.0
 20
0.0
  9
$LIMMAX
 10
279.4
 20
215.9
  9
$ORTHOMODE
 70
     0
  9
$REGENMODE
 70
     1
  9
$FILLMODE
 70
     1
  9
$QTEXTMODE
 70
     0
  9
$MIRRTEXT
 70
     1
  9
$LTSCALE
 40
1.0
  9
$ATTMODE
 70
     1
  9
$TEXTSIZE
 40
3.5
  9
$TRACEWID
 40
1.0
  9
$TEXTSTYLE
  7
Standard
  9
$CLAYER
  8
0
  9
$CELTYPE
  6
ByLayer
  9
$CECOLOR
 62
   256
  9
$CELTSCALE
 40
1.0
  9
$DISPSILH
 70
     0
  9
$DIMSCALE
 40
1.0
  9
$DIMASZ
 40
3.5
  9
$DIMEXO
 40
1.0
  9
$DIMDLI
 40
3.75
  9
$DIMRND
 40
0.0
  9
$DIMDLE
 40
0.0
  9
$DIMEXE
 40
1.0
  9
$DIMTP
 40
0.0
  9
$DIMTM
 40
0.0
  9
$DIMTXT
 40
3.5
  9
$DIMCEN
 40
2.5
  9
$DIMTSZ
 40
0.0
  9
$DIMTOL
 70
     0
  9
$DIMLIM
 70
     0
  9
$DIMTIH
 70
     1
  9
$DIMTOH
 70
     1
  9
$DIMSE1
 70
     0
  9
$DIMSE2
 70
     0
  9
$DIMTAD
 70
     1
  9
$DIMZIN
 70
     0
  9
$DIMBLK
  1

  9
$DIMASO
 70
     1
  9
$DIMSHO
 70
     1
  9
$DIMPOST
  1

  9
$DIMAPOST
  1

  9
$DIMALT
 70
     0
  9
$DIMALTD
 70
     3
  9
$DIMALTF
 40
0.0393700787
  9
$DIMLFAC
 40
1.0
  9
$DIMTOFL
 70
     1
  9
$DIMTVP
 40
0.0
  9
$DIMTIX
 70
     0
  9
$DIMSOXD
 70
     0
  9
$DIMSAH
 70
     0
  9
$DIMBLK1
  1

  9
$DIMBLK2
  1

  9
$DIMSTYLE
  2
ISO-25
  9
$DIMCLRD
 70
     0
  9
$DIMCLRE
 70
     0
  9
$DIMCLRT
 70
     0
  9
$DIMTFAC
 40
1.0
  9
$DIMGAP
 40
1.524
  9
$DIMJUST
 70
     0
  9
$DIMSD1
 70
     0
  9
$DIMSD2
 70
     0
  9
$DIMTOLJ
 70
     0
  9
$DIMTZIN
 70
     0
  9
$DIMALTZ
 70
     0
  9
$DIMALTTZ
 70
     0
  9
$DIMUPT
 70
     0
  9
$DIMDEC
 70
     2
  9
$DIMTDEC
 70
     2
  9
$DIMALTU
 70
     2
  9
$DIMALTTD
 70
     3
  9
$DIMTXSTY
  7
Standard
  9
$DIMAUNIT
 70
     0
  9
$DIMADEC
 70
     2
  9
$DIMALTRND
 40
0.0
  9
$DIMAZIN
 70
     0
  9
$DIMDSEP
 70
    44
  9
$DIMATFIT
 70
     3
  9
$DIMFRAC
 70
     0
  9
$DIMLDRBLK
  1

  9
$DIMLUNIT
 70
     2
  9
$DIMLWD
 70
    -2
  9
$DIMLWE
 70
    -2
  9
$DIMTMOVE
 70
     0
  9
$LUNITS
 70
     2
  9
$LUPREC
 70
     2
  9
$SKETCHINC
 40
1.0
  9
$FILLETRAD
 40
10.0
  9
$AUNITS
 70
     0
  9
$AUPREC
 70
     2
  9
$MENU
  1
.
  9
$ELEVATION
 40
0.0
  9
$PELEVATION
 40
0.0
  9
$THICKNESS
 40
0.0
  9
$LIMCHECK
 70
     0
  9
$CHAMFERA
 40
0.0
  9
$CHAMFERB
 40
0.0
  9
$CHAMFERC
 40
0.0
  9
$CHAMFERD
 40
0.0
  9
$SKPOLY
 70
     0
  9
$TDCREATE
 40
2460682.5196075
  9
$TDUCREATE
 40
2460682.3946075
  9
$TDUPDATE
 40
2460682.519607685
  9
$TDUUPDATE
 40
2460682.394607685
  9
$TDINDWG
 40
0.0000000116
  9
$TDUSRTIMER
 40
0.0000000116
  9
$USRTIMER
 70
     1
  9
$ANGBASE
 50
0.0
  9
$ANGDIR
 70
     0
  9
$PDMODE
 70
     0
  9
$PDSIZE
 40
-1.0
  9
$PLINEWID
 40
0.0
  9
$SPLFRAME
 70
     0
  9
$SPLINETYPE
 70
     6
  9
$SPLINESEGS
 70
     8
  9
$HANDSEED
  5
BF
  9
$SURFTAB1
 70
     6
  9
$SURFTAB2
 70
     6
  9
$SURFTYPE
 70
     6
  9
$SURFU
 70
     6
  9
$SURFV
 70
     6
  9
$UCSBASE
  2

  9
$UCSNAME
  2

  9
$UCSORG
 10
0.0
 20
0.0
 30
0.0
  9
$UCSXDIR
 10
1.0
 20
0.0
 30
0.0
  9
$UCSYDIR
 10
0.0
 20
1.0
 30
0.0
  9
$UCSORTHOREF
  2

  9
$UCSORTHOVIEW
 70
     0
  9
$UCSORGTOP
 10
0.0
 20
0.0
 30
0.0
  9
$UCSORGBOTTOM
 10
0.0
 20
0.0
 30
0.0
  9
$UCSORGLEFT
 10
0.0
 20
0.0
 30
0.0
  9
$UCSORGRIGHT
 10
0.0
 20
0.0
 30
0.0
  9
$UCSORGFRONT
 10
0.0
 20
0.0
 30
0.0
  9
$UCSORGBACK
 10
0.0
 20
0.0
 30
0.0
  9
$PUCSBASE
  2

  9
$PUCSNAME
  2

  9
$PUCSORG
 10
0.0
 20
0.0
 30
0.0
  9
$PUCSXDIR
 10
1.0
 20
0.0
 30
0.0
  9
$PUCSYDIR
 10
0.0
 20
1.0
 30
0.0
  9
$PUCSORTHOREF
  2

  9
$PUCSORTHOVIEW
 70
     0
  9
$PUCSORGTOP
 10
0.0
 20
0.0
 30
0.0
  9
$PUCSORGBOTTOM
 10
0.0
 20
0.0
 30
0.0
  9
$PUCSORGLEFT
 10
0.0
 20
0.0
 30
0.0
  9
$PUCSORGRIGHT
 10
0.0
 20
0.0
 30
0.0
  9
$PUCSORGFRONT
 10
0.0
 20
0.0
 30
0.0
  9
$PUCSORGBACK
 10
0.0
 20
0.0
 30
0.0
  9
$USERI1
 70
     0
  9
$USERI2
 70
     0
  9
$USERI3
 70
     0
  9
$USERI4
 70
     0
  9
$USERI5
 70
     0
  9
$USERR1
 40
0.0
  9
$USERR2
 40
0.0
  9
$USERR3
 40
0.0
  9
$USERR4
 40
0.0
  9
$USERR5
 40
0.0
  9
$WORLDVIEW
 70
     1
  9
$SHADEDGE
 70
     3
  9
$SHADEDIF
 70
    70
  9
$TILEMODE
 70
     1
  9
$MAXACTVP
 70
    64
  9
$PINSBASE
 10
0.0
 20
0.0
 30
0.0
  9
$PLIMCHECK
 70
     0
  9
$PEXTMIN
 10
1.0000000000E+20
 20
1.0000000000E+20
 30
1.0000000000E+20
  9
$PEXTMAX
 10
-1.0000000000E+20
 20
-1.0000000000E+20
 30
-1.0000000000E+20
  9
$PLIMMIN
 10
0.0
 20
0.0
  9
$PLIMMAX
 10
420.0
 20
297.0
  9
$UNITMODE
 70
     0
  9
$VISRETAIN
 70
     1
  9
$PLINEGEN
 70
     0
  9
$PSLTSCALE
 70
     1
  9
$TREEDEPTH
 70
  3020
  9
$CMLSTYLE
  2
Standard
  9
$CMLJUST
 70
     0
  9
$CMLSCALE
 40
20.0
  9
$PROXYGRAPHICS
 70
     1
  9
$MEASUREMENT
 70
     1
  9
$CELWEIGHT
370
    -1
  9
$ENDCAPS
280
     0
  9
$JOINSTYLE
280
     0
  9
$LWDISPLAY
290
     1
  9
$INSUNITS
 70
     4
  9
$HYPERLINKBASE
  1

  9
$STYLESHEET
  1

  9
$XEDIT
290
     1
  9
$CEPSNTYPE
380
     0
  9
$PSTYLEMODE
290
     1
  9
$FINGERPRINTGUID
  2
{e93484db-469d-4da1-9e15-62988387b529}
  9
$VERSIONGUID
  2
{FAEB1C32-E019-11D5-929B-00C0DF256EC4}
  9
$EXTNAMES
290
     1
  9
$PSVPSCALE
 40
0.0
  9
$OLESTARTUP
290
     0
  0
ENDSEC
  0
SECTION
  2
CLASSES
  0
CLASS
  1
ACDBDICTIONARYWDFLT
  2
AcDbDictionaryWithDefault
  3
ObjectDBX Classes
 90
        0
280
     0
281
     0
  0
CLASS
  1
VISUALSTYLE
  2
AcDbVisualStyle
  3
ObjectDBX Classes
 90
     4095
280
     0
281
     0
  0
CLASS
  1
MATERIAL
  2
AcDbMaterial
  3
ObjectDBX Classes
 90
     1153
280
     0
281
     0
  0
CLASS
  1
SCALE
  2
AcDbScale
  3
ObjectDBX Classes
 90
     1153
280
     0
281
     0
  0
CLASS
  1
TABLESTYLE
  2
AcDbTableStyle
  3
ObjectDBX Classes
 90
     4095
280
     0
281
     0
  0
CLASS
  1
MLEADERSTYLE
  2
AcDbMLeaderStyle
  3
ACDB_MLEADERSTYLE_CLASS
 90
     4095
280
     0
281
     0
  0
CLASS
  1
SUN
  2
AcDbSun
  3
SCENEOE
 90
     1153
280
     0
281
     0
  0
CLASS
  1
ACDBPLACEHOLDER
  2
AcDbPlaceHolder
  3
ObjectDBX Classes
 90
        0
280
     0
281
     0
  0
CLASS
  1
LAYOUT
  2
AcDbLayout
  3
ObjectDBX Classes
 90
        0
280
     0
281
     0
  0
ENDSEC
  0
SECTION
  2
TABLES
  0
TABLE
  2
VPORT
  5
8
330
0
100
AcDbSymbolTable
 70
     1
  0
VPORT
  5
29
330
8
100
AcDbSymbolTableRecord
100
AcDbViewportTableRecord
  2
*Active
 70
     0
 10
0.0
 20
0.0
 11
1.0
 21
1.0
 12
139.7
 22
107.95
 13
0.0
 23
0.0
 14
10.0
 24
10.0
 15
10.0
 25
10.0
 16
0.0
 26
0.0
 36
1.0
 17
0.0
 27
0.0
 37
0.0
 40
215.9
 41
1.2941176471
 42
50.0
 43
0.0
 44
0.0
 50
0.0
 51
0.0
 71
     0
 72
  2000
 73
     1
 74
     3
 75
     0
 76
     0
 77
     0
 78
     0
281
     0
 65
     1
110
0.0
120
0.0
130
0.0
111
1.0
121
0.0
131
0.0
112
0.0
122
1.0
132
0.0
 79
     0
146
0.0
  0
ENDTAB
  0
TABLE
  2
LTYPE
  5
5
330
0
100
AcDbSymbolTable
 70
     6
  0
LTYPE
  5
14
330
5
100
AcDbSymbolTableRecord
100
AcDbLinetypeTableRecord
  2
ByBlock
 70
     0
  3

 72
    65
 73
     0
 40
0.0
  0
LTYPE
  5
15
330
5
100
AcDbSymbolTableRecord
100
AcDbLinetypeTableRecord
  2
ByLayer
 70
     0
  3

 72
    65
 73
     0
 40
0.0
  0
LTYPE
  5
16
330
5
100
AcDbSymbolTableRecord
100
AcDbLinetypeTableRecord
  2
Continuous
 70
     0
  3
Solid line
 72
    65
 73
     0
 40
0.0
  0
LTYPE
  5
6E
330
5
100
AcDbSymbolTableRecord
100
AcDbLinetypeTableRecord
  2
HIDDEN
 70
     0
  3
Hidden __ __ __ __ __ __ __ __ __ __ __ __ __ __
 72
    65
 73
     2
 40
1.905
 49
1.27
 74
     0
 49
-0.635
 74
     0
  0
LTYPE
  5
6F
330
5
100
AcDbSymbolTableRecord
100
AcDbLinetypeTableRecord
  2
PHANTOM
 70
     0
  3
Phantom ______  __  __  ______  __  __  ______
 72
    65
 73
     6
 40
12.7
 49
6.35
 74
     0
 49
-1.27
 74
     0
 49
1.27
 74
     0
 49
-1.27
 74
     0
 49
1.27
 74
     0
 49
-1.27
 74
     0
  0
LTYPE
  5
70
330
5
100
AcDbSymbolTableRecord
100
AcDbLinetypeTableRecord
  2
CENTER
 70
     0
  3
Center ____ _ ____ _ ____ _ ____ _ ____ _ ____
 72
    65
 73
     4
 40
10.16
 49
6.35
 74
     0
 49
-1.27
 74
     0
 49
1.27
 74
     0
 49
-1.27
 74
     0
  0
LTYPE
  5
71
330
5
100
AcDbSymbolTableRecord
100
AcDbLinetypeTableRecord
  2
CENTERX2
 70
     0
  3
Center (2x) ________  __  ________  __  _____
 72
    65
 73
     4
 40
20.32
 49
12.7
 74
     0
 49
-2.54
 74
     0
 49
2.54
 74
     0
 49
-2.54
 74
     0
  0
LTYPE
  5
72
330
5
100
AcDbSymbolTableRecord
100
AcDbLinetypeTableRecord
  2
DOT2
 70
     0
  3
Dot (.5x) ........................................
 72
    65
 73
     2
 40
0.635
 49
0.0
 74
     0
 49
-0.635
 74
     0
  0
ENDTAB
  0
TABLE
  2
LAYER
  5
2
330
0
100
AcDbSymbolTable
 70
    17
  0
LAYER
  5
10
330
2
100
AcDbSymbolTableRecord
100
AcDbLayerTableRecord
  2
0
 70
     0
 62
     7
  6
Continuous
370
    -3
390
F
  0
LAYER
  5
73
330
2
100
AcDbSymbolTableRecord
100
AcDbLayerTableRecord
  2
FORMAT
 70
     0
 62
     7
  6
Continuous
370
    -3
390
F
  0
LAYER
  5
74
330
2
100
AcDbSymbolTableRecord
100
AcDbLayerTableRecord
  2
YARDIMCI_GEOMETRI
 70
     0
 62
    -6
  6
Continuous
290
     0
370
    -3
390
F
  0
LAYER
  5
75
330
2
100
AcDbSymbolTableRecord
100
AcDbLayerTableRecord
  2
SAYFA_CERCEVESI
 70
     0
 62
     7
  6
Continuous
370
    25
390
F
  0
LAYER
  5
76
330
2
100
AcDbSymbolTableRecord
100
AcDbLayerTableRecord
  2
ANTET
 70
     0
 62
     7
  6
Continuous
370
    -3
390
F
  0
LAYER
  5
77
330
2
100
AcDbSymbolTableRecord
100
AcDbLayerTableRecord
  2
OLCU
 70
     0
 62
   150
  6
Continuous
370
    -3
390
F
  0
LAYER
  5
78
330
2
100
AcDbSymbolTableRecord
100
AcDbLayerTableRecord
  2
METIN
 70
     0
 62
    96
  6
Continuous
370
    -3
390
F
  0
LAYER
  5
79
330
2
100
AcDbSymbolTableRecord
100
AcDbLayerTableRecord
  2
BALON
 70
     0
 62
     5
  6
Continuous
370
    -3
390
F
  0
LAYER
  5
7A
330
2
100
AcDbSymbolTableRecord
100
AcDbLayerTableRecord
  2
VURGU
 70
     0
 62
     7
  6
Continuous
370
    -3
390
F
  0
LAYER
  5
7B
330
2
100
AcDbSymbolTableRecord
100
AcDbLayerTableRecord
  2
SILIK
 70
     0
 62
     7
  6
Continuous
370
    -3
390
F
  0
LAYER
  5
7C
330
2
100
AcDbSymbolTableRecord
100
AcDbLayerTableRecord
  2
MODEL
 70
     0
 62
     7
  6
Continuous
370
    -3
390
F
  0
LAYER
  5
7D
330
2
100
AcDbSymbolTableRecord
100
AcDbLayerTableRecord
  2
DETAYLANDıRMA
 70
     0
 62
   190
  6
Continuous
370
    -3
390
F
  0
LAYER
  5
7E
330
2
100
AcDbSymbolTableRecord
100
AcDbLayerTableRecord
  2
TOLERANS
 70
     0
 62
   230
  6
Continuous
370
    -3
390
F
  0
LAYER
  5
7F
330
2
100
AcDbSymbolTableRecord
100
AcDbLayerTableRecord
  2
MERKEZ_CIZGILERI
 70
     0
 62
    30
  6
Continuous
370
    -3
390
F
  0
LAYER
  5
80
330
2
100
AcDbSymbolTableRecord
100
AcDbLayerTableRecord
  2
KESIT-DETAY_CIZGILERI
 70
     0
 62
     7
  6
Continuous
370
    -3
390
F
  0
LAYER
  5
81
330
2
100
AcDbSymbolTableRecord
100
AcDbLayerTableRecord
  2
\U+041E\U+0421\U+0415\U+0412\U+042B\U+0415
 70
     0
 62
     7
  6
Continuous
370
    -3
390
F
  0
LAYER
  5
82
330
2
100
AcDbSymbolTableRecord
100
AcDbLayerTableRecord
  2
\U+0412\U+041E\U+0414\U+042F\U+041D\U+042B\U+0415_\U+0417\U+041D\U+0410\U+041A\U+0418
 70
     0
 62
    11
  6
Continuous
370
    -3
390
F
  0
ENDTAB
  0
TABLE
  2
STYLE
  5
3
330
0
100
AcDbSymbolTable
 70
     1
  0
STYLE
  5
11
330
3
100
AcDbSymbolTableRecord
100
AcDbTextStyleTableRecord
  2
Standard
 70
     0
 40
0.0
 41
1.0
 50
0.0
 71
     0
 42
3.5
  3
txt
  4

  0
ENDTAB
  0
TABLE
  2
VIEW
  5
6
330
0
100
AcDbSymbolTable
 70
     0
  0
ENDTAB
  0
TABLE
  2
UCS
  5
7
330
0
100
AcDbSymbolTable
 70
     0
  0
ENDTAB
  0
TABLE
  2
APPID
  5
9
330
0
100
AcDbSymbolTable
 70
     1
  0
APPID
  5
12
330
9
100
AcDbSymbolTableRecord
100
AcDbRegAppTableRecord
  2
ACAD
 70
     0
  0
ENDTAB
  0
TABLE
  2
DIMSTYLE
  5
A
330
0
100
AcDbSymbolTable
 70
     1
100
AcDbDimStyleTable
  0
DIMSTYLE
105
27
330
A
100
AcDbSymbolTableRecord
100
AcDbDimStyleTableRecord
  2
ISO-25
 70
     0
 41
2.5
 42
0.625
 43
3.75
 44
1.25
 73
     0
 74
     0
 77
     1
 78
     8
140
2.5
141
2.5
143
0.0393700787
147
0.625
171
     3
172
     1
178
     0
271
     2
272
     2
274
     3
278
    44
283
     0
284
     8
340
11
  0
ENDTAB
  0
TABLE
  2
BLOCK_RECORD
  5
1
330
0
100
AcDbSymbolTable
 70
     2
  0
BLOCK_RECORD
  5
1F
330
1
100
AcDbSymbolTableRecord
100
AcDbBlockTableRecord
  2
*Model_Space
340
22
  0
BLOCK_RECORD
  5
1B
330
1
100
AcDbSymbolTableRecord
100
AcDbBlockTableRecord
  2
*Paper_Space
340
1E
  0
BLOCK_RECORD
  5
23
330
1
100
AcDbSymbolTableRecord
100
AcDbBlockTableRecord
  2
*Paper_Space0
340
26
  0
BLOCK_RECORD
  5
A2
330
1
100
AcDbSymbolTableRecord
100
AcDbBlockTableRecord
  2
SW_CENTERMARKSYMBOL_0
340
0
102
{BLKREFS
331
AD
102
}
  0
ENDTAB
  0
ENDSEC
  0
SECTION
  2
BLOCKS
  0
BLOCK
  5
20
330
1F
100
AcDbEntity
  8
0
100
AcDbBlockBegin
  2
*Model_Space
 70
     0
 10
0.0
 20
0.0
 30
0.0
  3
*Model_Space
  1

  0
ENDBLK
  5
21
330
1F
100
AcDbEntity
  8
0
100
AcDbBlockEnd
  0
BLOCK
  5
1C
330
1B
100
AcDbEntity
 67
     1
  8
0
100
AcDbBlockBegin
  2
*Paper_Space
 70
     0
 10
0.0
 20
0.0
 30
0.0
  3
*Paper_Space
  1

  0
ENDBLK
  5
1D
330
1B
100
AcDbEntity
 67
     1
  8
0
100
AcDbBlockEnd
  0
BLOCK
  5
24
330
23
100
AcDbEntity
  8
0
100
AcDbBlockBegin
  2
*Paper_Space0
 70
     0
 10
0.0
 20
0.0
 30
0.0
  3
*Paper_Space0
  1

  0
ENDBLK
  5
25
330
23
100
AcDbEntity
  8
0
100
AcDbBlockEnd
  0
BLOCK
  5
A3
330
A2
100
AcDbEntity
  8
0
100
AcDbBlockBegin
  2
SW_CENTERMARKSYMBOL_0
 70
     0
 10
0.0
 20
0.0
 30
0.0
  3
SW_CENTERMARKSYMBOL_0
  1

  0
LINE
  5
A5
330
A2
100
AcDbEntity
  8
FORMAT
 62
     0
100
AcDbLine
 10
0.0
 20
0.0
 30
0.0
 11
0.0
 21
2.5
 31
0.0
  0
LINE
  5
A6
330
A2
100
AcDbEntity
  8
FORMAT
 62
     0
100
AcDbLine
 10
0.0
 20
0.0
 30
0.0
 11
-2.5
 21
0.0
 31
0.0
  0
LINE
  5
A7
330
A2
100
AcDbEntity
  8
FORMAT
 62
     0
100
AcDbLine
 10
0.0
 20
0.0
 30
0.0
 11
0.0
 21
-2.5
 31
0.0
  0
LINE
  5
A8
330
A2
100
AcDbEntity
  8
FORMAT
 62
     0
100
AcDbLine
 10
0.0
 20
0.0
 30
0.0
 11
2.5
 21
0.0
 31
0.0
  0
LINE
  5
A9
330
A2
100
AcDbEntity
  8
FORMAT
 62
     0
100
AcDbLine
 10
0.0
 20
5.0
 30
0.0
 11
0.0
 21
142.5
 31
0.0
  0
LINE
  5
AA
330
A2
100
AcDbEntity
  8
FORMAT
 62
     0
100
AcDbLine
 10
-5.0
 20
0.0
 30
0.0
 11
-142.5
 21
0.0
 31
0.0
  0
LINE
  5
AB
330
A2
100
AcDbEntity
  8
FORMAT
 62
     0
100
AcDbLine
 10
0.0
 20
-5.0
 30
0.0
 11
0.0
 21
-144.1611386117
 31
0.0
  0
LINE
  5
AC
330
A2
100
AcDbEntity
  8
FORMAT
 62
     0
100
AcDbLine
 10
5.0
 20
0.0
 30
0.0
 11
142.5
 21
0.0
 31
0.0
  0
ENDBLK
  5
A4
330
A2
100
AcDbEntity
  8
0
100
AcDbBlockEnd
  0
ENDSEC
  0
SECTION
  2
ENTITIES
  0
LINE
  5
83
330
1F
100
AcDbEntity
  8
0
  6
Continuous
 62
     7
370
    25
100
AcDbLine
 10
130.2948393232
 20
420.0296608784
 30
0.0
 11
-7.4310455864
 21
181.4814306976
 31
0.0
  0
LINE
  5
84
330
1F
100
AcDbEntity
  8
0
  6
Continuous
 62
     7
370
    25
100
AcDbLine
 10
272.5689544136
 20
106.4556568168
 30
0.0
 11
372.7819523828
 21
280.0296608784
 31
0.0
  0
LINE
  5
85
330
1F
100
AcDbEntity
  8
0
  6
Continuous
 62
     7
370
    25
100
AcDbLine
 10
-7.4310455864
 20
181.4814306976
 30
0.0
 11
-7.4310455864
 21
-93.9703391216
 31
0.0
  0
LINE
  5
86
330
1F
100
AcDbEntity
  8
0
  6
Continuous
 62
     7
370
    25
100
AcDbLine
 10
272.5689544136
 20
-93.9703391216
 30
0.0
 11
272.5689544136
 21
106.4556568168
 31
0.0
  0
LINE
  5
87
330
1F
100
AcDbEntity
  8
0
  6
Continuous
 62
     7
370
    25
100
AcDbLine
 10
251.538395853
 20
350.0296608784
 30
0.0
 11
372.7819523828
 21
280.0296608784
 31
0.0
  0
LINE
  5
88
330
1F
100
AcDbEntity
  8
0
  6
Continuous
 62
     7
370
    25
100
AcDbLine
 10
130.2948393232
 20
420.0296608784
 30
0.0
 11
251.538395853
 21
350.0296608784
 31
0.0
  0
LINE
  5
89
330
1F
100
AcDbEntity
  8
0
  6
Continuous
 62
     7
370
    25
100
AcDbLine
 10
272.5689544136
 20
106.4556568168
 30
0.0
 11
-7.4310455864
 21
181.4814306976
 31
0.0
  0
LINE
  5
8A
330
1F
100
AcDbEntity
  8
0
  6
Continuous
 62
     7
370
    25
100
AcDbLine
 10
132.5689544136
 20
-93.9703391216
 30
0.0
 11
272.5689544136
 21
-93.9703391216
 31
0.0
  0
LINE
  5
8B
330
1F
100
AcDbEntity
  8
0
  6
Continuous
 62
     7
370
    25
100
AcDbLine
 10
-7.4310455864
 20
-93.9703391216
 30
0.0
 11
132.5689544136
 21
-93.9703391216
 31
0.0
  0
LINE
  5
8C
330
1F
100
AcDbEntity
  8
0
  6
Continuous
 62
     7
370
    25
100
AcDbLine
 10
-472.2449398834
 20
350.0296608784
 30
0.0
 11
-472.2449398834
 21
143.9685437572
 31
0.0
  0
LINE
  5
8D
330
1F
100
AcDbEntity
  8
0
  6
Continuous
 62
     7
370
    25
100
AcDbLine
 10
-192.2449398834
 20
143.9685437572
 30
0.0
 11
-192.2449398834
 21
350.0296608784
 31
0.0
  0
LINE
  5
8E
330
1F
100
AcDbEntity
  8
0
  6
Continuous
 62
     7
370
    25
100
AcDbLine
 10
-472.2449398834
 20
143.9685437572
 30
0.0
 11
-472.2449398834
 21
-93.9703391216
 31
0.0
  0
LINE
  5
8F
330
1F
100
AcDbEntity
  8
0
  6
Continuous
 62
     7
370
    25
100
AcDbLine
 10
-192.2449398834
 20
-93.9703391216
 30
0.0
 11
-192.2449398834
 21
143.9685437572
 31
0.0
  0
LWPOLYLINE
  5
90
330
1F
100
AcDbEntity
  8
0
  6
Continuous
 62
     7
370
    25
100
AcDbPolyline
 90
      126
 70
   128
 43
0.0
 10
-472.2449398834
 20
350.0296608784
 10
-472.0681138083
 20
346.5125586058
 10
-471.5380822608
 20
343.0043408388
 10
-470.6561841467
 20
339.5138696399
 10
-469.4246472172
 20
336.0499622424
 10
-467.8465824414
 20
332.6213687768
 10
-465.925976148
 20
329.236750168
 10
-463.667679955
 20
325.9046562561
 10
-461.0773985147
 20
322.6335041998
 10
-458.1616751027
 20
319.4315572128
 10
-454.9278750896
 20
316.3069036912
 10
-451.3841673347
 20
313.2674367811
 10
-447.5395035514
 20
310.3208344395
 10
-443.4035956941
 20
307.4745400397
 10
-438.986891425
 20
304.7357435685
 10
-434.3005477224
 20
302.1113634634
 10
-429.3564026972
 20
299.6080291362
 10
-424.1669456888
 20
297.2320642268
 10
-418.7452857161
 20
294.9894706288
 10
-413.1051183625
 20
292.8859133282
 10
-407.2606911805
 20
290.9267060932
 10
-401.2267677002
 20
289.1167980515
 10
-395.018590136
 20
287.4607611878
 10
-388.6518408833
 20
285.9627787949
 10
-382.1426029033
 20
284.6266349064
 10
-375.5073190959
 20
283.4557047377
 10
-368.762750764
 20
282.45294616
 10
-361.9259352725
 20
281.6208922286
 10
-355.0141430107
 20
280.9616447838
 10
-348.0448337657
 20
280.476869142
 10
-341.0356126175
 20
280.1677898884
 10
-334.0041854671
 20
280.0351877841
 10
-326.9683143096
 20
280.0793977935
 10
-319.9457723663
 20
280.3003082383
 10
-312.9542991876
 20
280.6973610796
 10
-306.0115558414
 20
281.2695533274
 10
-299.1350803001
 20
282.0154395743
 10
-292.3422431376
 20
282.9331356471
 10
-285.6502036502
 20
284.0203233659
 10
-279.0758665104
 20
285.2742564
 10
-272.6358390643
 20
286.6917672057
 10
-266.3463893803
 20
288.2692750279
 10
-260.223405154
 20
290.0027949448
 10
-254.2823535751
 20
291.8879479347
 10
-248.5382422554
 20
293.9199719374
 10
-243.0055813186
 20
296.0937338841
 10
-237.6983467465
 20
298.4037426633
 10
-232.6299450741
 20
300.8441629924
 10
-227.813179524
 20
303.408830158
 10
-223.260217664
 20
306.091265588
 10
-218.9825606709
 20
308.8846932179
 10
-214.9910142775
 20
311.782056607
 10
-211.2956614764
 20
314.7760367639
 10
-207.9058370495
 20
317.8590706349
 10
-204.8301039875
 20
321.0233702088
 10
-202.0762318591
 20
324.2609421904
 10
-199.6511771842
 20
327.5636081919
 10
-197.5610658614
 20
330.9230253922
 10
-195.8111776933
 20
334.3307076119
 10
-194.4059330493
 20
337.7780467501
 10
-193.3488816994
 20
341.2563345289
 10
-192.6426938469
 20
344.7567844914
 10
-192.2891533838
 20
348.2705541973
 10
-192.2891533838
 20
351.7887675594
 10
-192.6426938469
 20
355.3025372653
 10
-193.3488816994
 20
358.8029872279
 10
-194.4059330493
 20
362.2812750066
 10
-195.8111776933
 20
365.7286141448
 10
-197.5610658614
 20
369.1362963646
 10
-199.6511771842
 20
372.4957135649
 10
-202.0762318591
 20
375.7983795663
 10
-204.8301039875
 20
379.0359515479
 10
-207.9058370495
 20
382.2002511219
 10
-211.2956614764
 20
385.2832849929
 10
-214.9910142775
 20
388.2772651498
 10
-218.9825606709
 20
391.1746285388
 10
-223.260217664
 20
393.9680561687
 10
-227.813179524
 20
396.6504915988
 10
-232.6299450741
 20
399.2151587643
 10
-237.6983467465
 20
401.6555790934
 10
-243.0055813186
 20
403.9655878727
 10
-248.5382422554
 20
406.1393498193
 10
-254.2823535751
 20
408.1713738221
 10
-260.223405154
 20
410.0565268119
 10
-266.3463893803
 20
411.7900467288
 10
-272.6358390643
 20
413.367554551
 10
-279.0758665104
 20
414.7850653568
 10
-285.6502036502
 20
416.0389983909
 10
-292.3422431376
 20
417.1261861096
 10
-299.1350803001
 20
418.0438821824
 10
-306.0115558414
 20
418.7897684294
 10
-312.9542991876
 20
419.3619606771
 10
-319.9457723663
 20
419.7590135184
 10
-326.9683143096
 20
419.9799239632
 10
-334.0041854671
 20
420.0241339726
 10
-341.0356126175
 20
419.8915318683
 10
-348.0448337657
 20
419.5824526148
 10
-355.0141430107
 20
419.0976769729
 10
-361.9259352725
 20
418.4384295281
 10
-368.762750764
 20
417.6063755967
 10
-375.5073190959
 20
416.603617019
 10
-382.1426029033
 20
415.4326868503
 10
-388.6518408833
 20
414.0965429618
 10
-395.018590136
 20
412.598560569
 10
-401.2267677002
 20
410.9425237052
 10
-407.2606911805
 20
409.1326156635
 10
-413.1051183625
 20
407.1734084286
 10
-418.7452857161
 20
405.0698511279
 10
-424.1669456888
 20
402.8272575299
 10
-429.3564026972
 20
400.4512926205
 10
-434.3005477224
 20
397.9479582934
 10
-438.986891425
 20
395.3235781882
 10
-443.4035956941
 20
392.584781717
 10
-447.5395035514
 20
389.7384873172
 10
-451.3841673347
 20
386.7918849757
 10
-454.9278750896
 20
383.7524180655
 10
-458.1616751027
 20
380.6277645439
 10
-461.0773985147
 20
377.425817557
 10
-463.667679955
 20
374.1546655006
 10
-465.925976148
 20
370.8225715888
 10
-467.8465824414
 20
367.4379529799
 10
-469.4246472172
 20
364.0093595144
 10
-470.6561841467
 20
360.5454521168
 10
-471.5380822608
 20
357.0549809179
 10
-472.0681138083
 20
353.5467631509
 10
-472.2449398834
 20
350.0296608784
  0
ELLIPSE
  5
91
330
1F
100
AcDbEntity
  8
0
  6
Continuous
 62
     7
370
    25
100
AcDbEllipse
 10
-332.2449398834
 20
143.9685437572
 30
0.0
 11
140.0000000000001
 21
0.0
 31
0.0
210
0.0
220
0.0
230
1.0
 40
0.2679491924
 41
3.141592653589849
 42
6.283185307179586
  0
LWPOLYLINE
  5
92
330
1F
100
AcDbEntity
  8
0
  6
Continuous
 62
     7
370
    25
100
AcDbPolyline
 90
      114
 70
   128
 43
0.0
 10
-446.8449398834
 20
350.0296608784
 10
-446.6678288672
 20
353.2140947612
 10
-446.1370432584
 20
356.3886857414
 10
-445.2542236849
 20
359.5436213402
 10
-444.0220988915
 20
362.6691498324
 10
-442.4444773053
 20
365.7556103886
 10
-440.5262352643
 20
368.7934629361
 10
-438.2733019445
 20
371.7733176468
 10
-435.6926410339
 20
374.6859639604
 10
-432.7922292073
 20
377.5223990542
 10
-429.5810314716
 20
380.2738556699
 10
-426.0689734549
 20
382.9318292126
 10
-422.2669107272
 20
385.4881040386
 10
-418.1865952466
 20
387.9347788489
 10
-413.8406390344
 20
390.2642911117
 10
-409.2424751922
 20
392.4694404383
 10
-404.4063163809
 20
394.5434108383
 10
-399.3471108903
 20
396.4797917882
 10
-394.0804964345
 20
398.2725980454
 10
-388.6227518171
 20
399.9162881485
 10
-382.9907466139
 20
401.4057815456
 10
-377.2018890302
 20
402.736474298
 10
-371.2740720931
 20
403.9042533106
 10
-365.225618345
 20
404.9055090454
 10
-359.0752232098
 20
405.7371466784
 10
-352.8418972064
 20
406.3965956652
 10
-346.5449071883
 20
406.8818176868
 10
-340.2037167907
 20
407.1913129498
 10
-333.8379262699
 20
407.324124822
 10
-327.4672119194
 20
407.2798427897
 10
-321.1112652522
 20
407.0586037259
 10
-314.7897321353
 20
406.6610914679
 10
-308.5221520652
 20
406.0885347034
 10
-302.3278977728
 20
405.3427031725
 10
-296.226115343
 20
404.4259021978
 10
-290.2356650358
 20
403.3409655585
 10
-284.3750629896
 20
402.0912467315
 10
-278.6624239896
 20
400.6806085262
 10
-273.1154054756
 20
399.1134111444
 10
-267.7511529638
 20
397.3944987034
 10
-262.5862470515
 20
395.5291842631
 10
-257.6366521666
 20
393.5232334034
 10
-252.9176672235
 20
391.3828464036
 10
-248.4438783341
 20
389.1146390772
 10
-244.2291137236
 20
386.725622323
 10
-240.2864009877
 20
384.223180455
 10
-236.6279268255
 20
381.6150483775
 10
-233.2649993712
 20
378.9092876774
 10
-230.2080132407
 20
376.1142617058
 10
-227.4664174029
 20
373.2386097279
 10
-225.0486859735
 20
370.2912202192
 10
-222.9622920218
 20
367.2812033917
 10
-221.2136844719
 20
364.2178630349
 10
-219.8082681695
 20
361.1106677584
 10
-218.7503871759
 20
357.9692217246
 10
-218.0433113406
 20
354.8032349633
 10
-217.6892261946
 20
351.622493358
 10
-217.6892261946
 20
348.4368283988
 10
-218.0433113406
 20
345.2560867935
 10
-218.7503871759
 20
342.0901000321
 10
-219.8082681695
 20
338.9486539983
 10
-221.2136844719
 20
335.8414587218
 10
-222.9622920218
 20
332.778118365
 10
-225.0486859735
 20
329.7681015375
 10
-227.4664174029
 20
326.8207120288
 10
-230.2080132407
 20
323.9450600509
 10
-233.2649993712
 20
321.1500340794
 10
-236.6279268256
 20
318.4442733792
 10
-240.2864009877
 20
315.8361413017
 10
-244.2291137236
 20
313.3336994337
 10
-248.4438783341
 20
310.9446826795
 10
-252.9176672235
 20
308.6764753531
 10
-257.6366521666
 20
306.5360883533
 10
-262.5862470515
 20
304.5301374937
 10
-267.7511529638
 20
302.6648230533
 10
-273.1154054756
 20
300.9459106123
 10
-278.6624239896
 20
299.3787132305
 10
-284.3750629896
 20
297.9680750252
 10
-290.2356650358
 20
296.7183561983
 10
-296.226115343
 20
295.6334195589
 10
-302.3278977728
 20
294.7166185842
 10
-308.5221520652
 20
293.9707870533
 10
-314.7897321353
 20
293.3982302888
 10
-321.1112652522
 20
293.0007180309
 10
-327.4672119194
 20
292.7794789671
 10
-333.8379262699
 20
292.7351969347
 10
-340.2037167907
 20
292.8680088069
 10
-346.5449071883
 20
293.1775040699
 10
-352.8418972064
 20
293.6627260916
 10
-359.0752232098
 20
294.3221750784
 10
-365.225618345
 20
295.1538127113
 10
-371.2740720931
 20
296.1550684461
 10
-377.2018890302
 20
297.3228474587
 10
-382.9907466139
 20
298.6535402111
 10
-388.6227518171
 20
300.1430336082
 10
-394.0804964345
 20
301.7867237113
 10
-399.3471108903
 20
303.5795299685
 10
-404.4063163809
 20
305.5159109184
 10
-409.2424751922
 20
307.5898813185
 10
-413.8406390344
 20
309.795030645
 10
-418.1865952466
 20
312.1245429079
 10
-422.2669107272
 20
314.5712177181
 10
-426.0689734549
 20
317.1274925441
 10
-429.5810314716
 20
319.7854660869
 10
-432.7922292073
 20
322.5369227025
 10
-435.6926410339
 20
325.3733577963
 10
-438.2733019445
 20
328.28600411
 10
-440.5262352643
 20
331.2658588206
 10
-442.4444773053
 20
334.3037113681
 10
-444.0220988915
 20
337.3901719243
 10
-445.2542236849
 20
340.5157004165
 10
-446.1370432584
 20
343.6706360153
 10
-446.6678288672
 20
346.8452269955
 10
-446.8449398834
 20
350.0296608784
  0
LINE
  5
93
330
1F
100
AcDbEntity
  8
0
  6
Continuous
 62
     7
370
    25
100
AcDbLine
 10
-472.2449398834
 20
-93.9703391216
 30
0.0
 11
-192.2449398834
 21
-93.9703391216
 31
0.0
  0
LINE
  5
94
330
1F
100
AcDbEntity
  8
0
  6
Continuous
 62
     7
370
    25
100
AcDbLine
 10
545.3063442873
 20
350.0296608784
 30
0.0
 11
545.3063442873
 21
143.9685437572
 31
0.0
  0
LINE
  5
95
330
1F
100
AcDbEntity
  8
0
  6
Continuous
 62
     7
370
    25
100
AcDbLine
 10
825.3063442873
 20
143.9685437572
 30
0.0
 11
825.3063442873
 21
350.0296608784
 31
0.0
  0
LINE
  5
96
330
1F
100
AcDbEntity
  8
0
  6
Continuous
 62
     7
370
    25
100
AcDbLine
 10
545.3063442873
 20
143.9685437572
 30
0.0
 11
545.3063442873
 21
-93.9703391216
 31
0.0
  0
LINE
  5
97
330
1F
100
AcDbEntity
  8
0
  6
Continuous
 62
     7
370
    25
100
AcDbLine
 10
825.3063442873
 20
-93.9703391216
 30
0.0
 11
825.3063442873
 21
143.9685437572
 31
0.0
  0
LWPOLYLINE
  5
98
330
1F
100
AcDbEntity
  8
0
  6
Continuous
 62
     7
370
    25
100
AcDbPolyline
 90
       64
 70
   128
 43
0.0
 10
545.3063442873
 20
350.0296608784
 10
545.3505577876
 20
351.7887675594
 10
545.7040982508
 20
355.3025372653
 10
546.4102861033
 20
358.8029872279
 10
547.4673374532
 20
362.2812750066
 10
548.8725820972
 20
365.7286141448
 10
550.6224702652
 20
369.1362963646
 10
552.712581588
 20
372.4957135649
 10
555.1376362629
 20
375.7983795663
 10
557.8915083914
 20
379.0359515479
 10
560.9672414534
 20
382.2002511219
 10
564.3570658803
 20
385.2832849929
 10
568.0524186814
 20
388.2772651498
 10
572.0439650748
 20
391.1746285388
 10
576.3216220679
 20
393.9680561687
 10
580.8745839279
 20
396.6504915988
 10
585.691349478
 20
399.2151587643
 10
590.7597511503
 20
401.6555790934
 10
596.0669857225
 20
403.9655878727
 10
601.5996466592
 20
406.1393498193
 10
607.3437579789
 20
408.1713738221
 10
613.2848095579
 20
410.0565268119
 10
619.4077937841
 20
411.7900467288
 10
625.6972434682
 20
413.367554551
 10
632.1372709142
 20
414.7850653568
 10
638.7116080541
 20
416.0389983909
 10
645.4036475415
 20
417.1261861096
 10
652.196484704
 20
418.0438821824
 10
659.0729602453
 20
418.7897684294
 10
666.0157035914
 20
419.3619606771
 10
673.0071767702
 20
419.7590135184
 10
680.0297187135
 20
419.9799239632
 10
687.065589871
 20
420.0241339726
 10
694.0970170214
 20
419.8915318683
 10
701.1062381696
 20
419.5824526148
 10
708.0755474146
 20
419.0976769729
 10
714.9873396764
 20
418.4384295281
 10
721.8241551679
 20
417.6063755967
 10
728.5687234998
 20
416.603617019
 10
735.2040073071
 20
415.4326868503
 10
741.7132452872
 20
414.0965429618
 10
748.0799945399
 20
412.598560569
 10
754.288172104
 20
410.9425237052
 10
760.3220955843
 20
409.1326156635
 10
766.1665227664
 20
407.1734084286
 10
771.8066901199
 20
405.0698511279
 10
777.2283500927
 20
402.8272575299
 10
782.4178071011
 20
400.4512926205
 10
787.3619521263
 20
397.9479582934
 10
792.0482958289
 20
395.3235781882
 10
796.465000098
 20
392.584781717
 10
800.6009079553
 20
389.7384873172
 10
804.4455717385
 20
386.7918849757
 10
807.9892794934
 20
383.7524180655
 10
811.2230795066
 20
380.6277645439
 10
814.1388029185
 20
377.425817557
 10
816.7290843588
 20
374.1546655006
 10
818.9873805518
 20
370.8225715888
 10
820.9079868453
 20
367.4379529799
 10
822.4860516211
 20
364.0093595144
 10
823.7175885506
 20
360.5454521168
 10
824.5994866647
 20
357.0549809179
 10
825.1295182121
 20
353.5467631509
 10
825.3063442873
 20
350.0296608784
  0
ELLIPSE
  5
99
330
1F
100
AcDbEntity
  8
0
  6
Continuous
 62
     7
370
    25
100
AcDbEllipse
 10
685.3063442873
 20
143.9685437572
 30
0.0
 11
140.0
 21
0.0
 31
0.0
210
0.0
220
0.0
230
1.0
 40
0.2679491924
 41
1.570796326794897
 42
3.141592653589849
  0
ELLIPSE
  5
9A
330
1F
100
AcDbEntity
  8
0
  6
Continuous
 62
     7
370
    25
100
AcDbEllipse
 10
685.3063442873
 20
143.9685437572
 30
0.0
 11
140.0
 21
0.0
 31
0.0
210
0.0
220
0.0
230
1.0
 40
0.2679491924
 41
0.0
 42
1.570796326794911
  0
LINE
  5
9B
330
1F
100
AcDbEntity
  8
0
  6
Continuous
 62
     7
370
    25
100
AcDbLine
 10
545.3063442873
 20
-93.9703391216
 30
0.0
 11
825.3063442873
 21
-93.9703391216
 31
0.0
  0
LINE
  5
9C
330
1F
100
AcDbEntity
  8
0
  6
Continuous
 62
     7
370
    25
100
AcDbLine
 10
251.538395853
 20
831.960110053
 30
0.0
 11
132.5689544136
 21
831.960110053
 31
0.0
  0
LINE
  5
9D
330
1F
100
AcDbEntity
  8
0
  6
Continuous
 62
     7
370
    25
100
AcDbLine
 10
132.5689544136
 20
551.960110053
 30
0.0
 11
251.538395853
 21
551.960110053
 31
0.0
  0
CIRCLE
  5
9E
330
1F
100
AcDbEntity
  8
0
  6
Continuous
 62
     7
370
    25
100
AcDbCircle
 10
132.5689544136
 20
691.960110053
 30
0.0
 40
140.0
  0
CIRCLE
  5
9F
330
1F
100
AcDbEntity
  8
0
  6
Continuous
 62
     7
370
    25
100
AcDbCircle
 10
132.5689544136
 20
691.960110053
 30
0.0
 40
114.6
  0
LWPOLYLINE
  5
A0
330
1F
100
AcDbEntity
  8
0
  6
Continuous
 62
     7
370
    25
100
AcDbPolyline
 90
       64
 70
   128
 43
0.0
 10
251.538395853
 20
831.960110053
 10
257.6301956845
 20
831.7832839779
 10
263.706607101
 20
831.2532524304
 10
269.7522805598
 20
830.3713543163
 10
275.751944165
 20
829.1398173868
 10
281.6904422458
 20
827.561752611
 10
287.5527736406
 20
825.6411463176
 10
293.3241295915
 20
823.3828501246
 10
298.9899311524
 20
820.7925686843
 10
304.535866017
 20
817.8768452723
 10
309.9479246724
 20
814.6430452592
 10
315.2124357887
 20
811.0993375043
 10
320.316100754
 20
807.254673721
 10
325.2460272677
 20
803.1187658637
 10
329.9897619075
 20
798.7020615946
 10
334.535321588
 20
794.015717892
 10
338.8712238309
 20
789.0715728668
 10
342.9865157709
 20
783.8821158584
 10
346.8708018235
 20
778.4604558857
 10
350.5142699448
 20
772.8202885321
 10
353.9077164183
 20
766.9758613501
 10
357.0425691036
 20
760.9419378698
 10
359.9109090908
 20
754.7337603056
 10
362.5054907041
 20
748.3670110529
 10
364.8197598052
 20
741.8577730729
 10
366.8478703495
 20
735.2224892655
 10
368.5846991537
 20
728.4779209336
 10
370.0258588376
 20
721.6411054421
 10
371.1677089067
 20
714.7293131803
 10
372.0073649487
 20
707.7600039353
 10
372.5427059194
 20
700.7507827871
 10
372.7723795013
 20
693.7193556367
 10
372.6958055187
 20
686.6834844792
 10
372.3131774044
 20
679.6609425359
 10
371.62546171
 20
672.6694693572
 10
370.6343956652
 20
665.726726011
 10
369.3424827888
 20
658.8502504697
 10
367.7529865648
 20
652.0574133072
 10
365.8699221986
 20
645.3653738198
 10
363.6980464743
 20
638.79103668
 10
361.2428457383
 20
632.3510092339
 10
358.510522041
 20
626.0615595499
 10
355.507977469
 20
619.9385753236
 10
352.2427967106
 20
613.9975237447
 10
348.7232278956
 20
608.253412425
 10
344.9581617604
 20
602.7207514882
 10
340.9571091889
 20
597.4135169161
 10
336.730177187
 20
592.3451152437
 10
332.2880433518
 20
587.5283496936
 10
327.6419288989
 20
582.9753878336
 10
322.8035703167
 20
578.6977308405
 10
317.7851897188
 20
574.7061844471
 10
312.5994639702
 20
571.010831646
 10
307.2594926642
 20
567.6210072191
 10
301.7787650317
 20
564.5452741571
 10
296.1711258664
 20
561.7914020287
 10
290.4507405515
 20
559.3663473538
 10
284.6320592768
 20
557.276236031
 10
278.7297805361
 20
555.5263478629
 10
272.7588139979
 20
554.1211032189
 10
266.7342428417
 20
553.064051869
 10
260.6712856572
 20
552.3578640165
 10
254.5852580005
 20
552.0043235534
 10
251.538395853
 20
551.960110053
  0
LWPOLYLINE
  5
A1
330
1F
100
AcDbEntity
  8
0
  6
Continuous
 62
     7
370
    25
100
AcDbPolyline
 90
       37
 70
   128
 43
0.0
 10
196.3244859289
 20
787.1882162045
 10
194.5501686188
 20
785.7841436245
 10
190.1225707421
 20
781.9820808968
 10
185.8848056612
 20
777.9017654162
 10
181.8499720651
 20
773.555809204
 10
178.0305413932
 20
768.9576453618
 10
174.4383192869
 20
764.1214865505
 10
171.0844090989
 20
759.0622810599
 10
167.9791775733
 20
753.7956666041
 10
165.1322228028
 20
748.3379219867
 10
162.5523445615
 20
742.7059167835
 10
160.2475171051
 20
736.9170591998
 10
158.2248645233
 20
730.9892422627
 10
156.4906387192
 20
724.9407885146
 10
155.0502000855
 20
718.7903933794
 10
153.9080009353
 20
712.557067376
 10
153.0675717409
 20
706.2600773579
 10
152.5315102207
 20
699.9188869603
 10
152.3014733101
 20
693.5530964395
 10
152.3781720401
 20
687.182382089
 10
152.7613693392
 20
680.8264354218
 10
153.4498807666
 20
674.5049023049
 10
154.4415781729
 20
668.2373222348
 10
155.7333962783
 20
662.0430679424
 10
157.3213421469
 20
655.9412855126
 10
159.2005075293
 20
649.9508352054
 10
161.3650840327
 20
644.0902331592
 10
163.8083810754
 20
638.3775941592
 10
166.5228465662
 20
632.8305756452
 10
169.5000902477
 20
627.4663231334
 10
172.7309096305
 20
622.3014172211
 10
176.2053184369
 20
617.3518223362
 10
179.9125774684
 20
612.6328373931
 10
183.8412277999
 20
608.1590485037
 10
187.9791261982
 20
603.9442838932
 10
192.3134826566
 20
600.0015711573
 10
196.3244859289
 20
596.7320039016
  0
INSERT
  5
AD
330
1F
100
AcDbEntity
  8
FORMAT
 62
     7
100
AcDbBlockReference
  2
SW_CENTERMARKSYMBOL_0
 10
132.5689544136
 20
691.960110053
 30
0.0
  0
LINE
  5
AE
330
1F
100
AcDbEntity
  8
0
  6
Continuous
 62
     7
370
    25
100
AcDbLine
 10
251.538395853
 20
-268.6674044984
 30
0.0
 11
132.5689544136
 21
-268.6674044984
 31
0.0
  0
LINE
  5
AF
330
1F
100
AcDbEntity
  8
0
  6
Continuous
 62
     7
370
    25
100
AcDbLine
 10
132.5689544136
 20
-548.6674044984
 30
0.0
 11
251.538395853
 21
-548.6674044984
 31
0.0
  0
LWPOLYLINE
  5
B0
330
1F
100
AcDbEntity
  8
0
  6
Continuous
 62
     7
370
    25
100
AcDbPolyline
 90
      126
 70
   128
 43
0.0
 10
251.538395853
 20
-548.6674044984
 10
257.6301956845
 20
-548.4905784233
 10
263.706607101
 20
-547.9605468758
 10
269.7522805598
 20
-547.0786487617
 10
275.751944165
 20
-545.8471118322
 10
281.6904422458
 20
-544.2690470564
 10
287.5527736406
 20
-542.348440763
 10
293.3241295915
 20
-540.09014457
 10
298.9899311524
 20
-537.4998631297
 10
304.535866017
 20
-534.5841397177
 10
309.9479246724
 20
-531.3503397046
 10
315.2124357887
 20
-527.8066319497
 10
320.316100754
 20
-523.9619681664
 10
325.2460272677
 20
-519.8260603091
 10
329.9897619075
 20
-515.40935604
 10
334.535321588
 20
-510.7230123374
 10
338.8712238309
 20
-505.7788673122
 10
342.9865157709
 20
-500.5894103038
 10
346.8708018235
 20
-495.1677503311
 10
350.5142699448
 20
-489.5275829776
 10
353.9077164183
 20
-483.6831557955
 10
357.0425691036
 20
-477.6492323152
 10
359.9109090908
 20
-471.441054751
 10
362.5054907041
 20
-465.0743054983
 10
364.8197598052
 20
-458.5650675183
 10
366.8478703495
 20
-451.9297837109
 10
368.5846991537
 20
-445.185215379
 10
370.0258588376
 20
-438.3483998875
 10
371.1677089067
 20
-431.4366076257
 10
372.0073649487
 20
-424.4672983807
 10
372.5427059194
 20
-417.4580772325
 10
372.7723795013
 20
-410.4266500821
 10
372.6958055187
 20
-403.3907789246
 10
372.3131774044
 20
-396.3682369813
 10
371.62546171
 20
-389.3767638026
 10
370.6343956652
 20
-382.4340204564
 10
369.3424827888
 20
-375.5575449151
 10
367.7529865648
 20
-368.7647077526
 10
365.8699221986
 20
-362.0726682652
 10
363.6980464743
 20
-355.4983311254
 10
361.2428457383
 20
-349.0583036793
 10
358.510522041
 20
-342.7688539953
 10
355.507977469
 20
-336.645869769
 10
352.2427967106
 20
-330.7048181901
 10
348.7232278956
 20
-324.9607068704
 10
344.9581617604
 20
-319.4280459336
 10
340.9571091889
 20
-314.1208113615
 10
336.730177187
 20
-309.0524096891
 10
332.2880433518
 20
-304.2356441391
 10
327.6419288989
 20
-299.6826822791
 10
322.8035703167
 20
-295.4050252859
 10
317.7851897188
 20
-291.4134788925
 10
312.5994639702
 20
-287.7181260914
 10
307.2594926642
 20
-284.3283016645
 10
301.7787650317
 20
-281.2525686025
 10
296.1711258664
 20
-278.4986964741
 10
290.4507405515
 20
-276.0736417992
 10
284.6320592768
 20
-273.9835304764
 10
278.7297805361
 20
-272.2336423083
 10
272.7588139979
 20
-270.8283976643
 10
266.7342428417
 20
-269.7713463144
 10
260.6712856572
 20
-269.065158462
 10
254.5852580005
 20
-268.7116179988
 10
248.4915337055
 20
-268.7116179988
 10
242.4055060487
 20
-269.065158462
 10
236.3425488643
 20
-269.7713463144
 10
230.3179777081
 20
-270.8283976643
 10
224.3470111698
 20
-272.2336423083
 10
218.4447324292
 20
-273.9835304764
 10
212.6260511544
 20
-276.0736417992
 10
206.9056658395
 20
-278.4986964741
 10
201.2980266742
 20
-281.2525686025
 10
195.8172990417
 20
-284.3283016645
 10
190.4773277357
 20
-287.7181260914
 10
185.2916019871
 20
-291.4134788925
 10
180.2732213893
 20
-295.4050252859
 10
175.434862807
 20
-299.6826822791
 10
170.7887483542
 20
-304.2356441391
 10
166.346614519
 20
-309.0524096891
 10
162.1196825171
 20
-314.1208113615
 10
158.1186299455
 20
-319.4280459336
 10
154.3535638103
 20
-324.9607068704
 10
150.8339949954
 20
-330.7048181901
 10
147.5688142369
 20
-336.645869769
 10
144.5662696649
 20
-342.7688539953
 10
141.8339459676
 20
-349.0583036793
 10
139.3787452317
 20
-355.4983311254
 10
137.2068695074
 20
-362.0726682652
 10
135.3238051412
 20
-368.7647077526
 10
133.7343089172
 20
-375.5575449151
 10
132.4423960407
 20
-382.4340204564
 10
131.4513299959
 20
-389.3767638026
 10
130.7636143016
 20
-396.3682369813
 10
130.3809861872
 20
-403.3907789246
 10
130.3044122047
 20
-410.4266500821
 10
130.5340857865
 20
-417.4580772325
 10
131.0694267573
 20
-424.4672983807
 10
131.9090827992
 20
-431.4366076257
 10
133.0509328683
 20
-438.3483998875
 10
134.4920925522
 20
-445.185215379
 10
136.2289213565
 20
-451.9297837109
 10
138.2570319008
 20
-458.5650675183
 10
140.5713010019
 20
-465.0743054983
 10
143.1658826152
 20
-471.441054751
 10
146.0342226024
 20
-477.6492323152
 10
149.1690752877
 20
-483.6831557955
 10
152.5625217611
 20
-489.5275829776
 10
156.2059898825
 20
-495.1677503311
 10
160.090275935
 20
-500.5894103039
 10
164.205567875
 20
-505.7788673122
 10
168.541470118
 20
-510.7230123374
 10
173.0870297985
 20
-515.40935604
 10
177.8307644382
 20
-519.8260603091
 10
182.7606909519
 20
-523.9619681664
 10
187.8643559172
 20
-527.8066319497
 10
193.1288670336
 20
-531.3503397046
 10
198.540925689
 20
-534.5841397177
 10
204.0868605535
 20
-537.4998631297
 10
209.7526621145
 20
-540.09014457
 10
215.5240180653
 20
-542.348440763
 10
221.3863494601
 20
-544.2690470564
 10
227.3248475409
 20
-545.8471118322
 10
233.3245111462
 20
-547.0786487617
 10
239.370184605
 20
-547.9605468758
 10
245.4465960214
 20
-548.4905784233
 10
251.538395853
 20
-548.6674044984
  0
ARC
  5
B1
330
1F
100
AcDbEntity
  8
0
  6
Continuous
 62
     7
370
    25
100
AcDbCircle
 10
132.5689544136
 20
-408.6674044984
 30
0.0
 40
140.0000000000001
100
AcDbArc
 50
90.0
 51
180.0
  0
ARC
  5
B2
330
1F
100
AcDbEntity
  8
0
  6
Continuous
 62
     7
370
    25
100
AcDbCircle
 10
132.5689544136
 20
-408.6674044984
 30
0.0
 40
140.0000000000001
100
AcDbArc
 50
180.0
 51
270.0
  0
LWPOLYLINE
  5
B3
330
1F
100
AcDbEntity
  8
0
  6
Continuous
 62
     7
370
    25
100
AcDbPolyline
 90
      114
 70
   128
 43
0.0
 10
251.538395853
 20
-523.2674044984
 10
246.0227945745
 20
-523.0902934822
 10
240.5242417035
 20
-522.5595078734
 10
235.0597329518
 20
-521.6766882999
 10
229.6461588028
 20
-520.4445635065
 10
224.3002523039
 20
-518.8669419203
 10
219.0385373458
 20
-516.9486998793
 10
213.8772775878
 20
-514.6957665595
 10
208.8324261881
 20
-512.1151056489
 10
203.9195764932
 20
-509.2146938223
 10
199.1539138401
 20
-506.0034960866
 10
194.5501686188
 20
-502.4914380699
 10
190.1225707421
 20
-498.6893753422
 10
185.8848056612
 20
-494.6090598616
 10
181.8499720651
 20
-490.2631036495
 10
178.0305413932
 20
-485.6649398072
 10
174.4383192869
 20
-480.828780996
 10
171.0844090989
 20
-475.7695755053
 10
167.9791775733
 20
-470.5029610495
 10
165.1322228028
 20
-465.0452164321
 10
162.5523445615
 20
-459.4132112289
 10
160.2475171051
 20
-453.6243536452
 10
158.2248645233
 20
-447.6965367081
 10
156.4906387192
 20
-441.64808296
 10
155.0502000855
 20
-435.4976878248
 10
153.9080009353
 20
-429.2643618214
 10
153.0675717409
 20
-422.9673718033
 10
152.5315102207
 20
-416.6261814057
 10
152.3014733101
 20
-410.2603908849
 10
152.3781720401
 20
-403.8896765344
 10
152.7613693392
 20
-397.5337298672
 10
153.4498807666
 20
-391.2121967503
 10
154.4415781729
 20
-384.9446166802
 10
155.7333962783
 20
-378.7503623878
 10
157.3213421469
 20
-372.648579958
 10
159.2005075293
 20
-366.6581296508
 10
161.3650840327
 20
-360.7975276046
 10
163.8083810754
 20
-355.0848886047
 10
166.5228465662
 20
-349.5378700906
 10
169.5000902477
 20
-344.1736175788
 10
172.7309096305
 20
-339.0087116665
 10
176.2053184369
 20
-334.0591167816
 10
179.9125774684
 20
-329.3401318385
 10
183.8412277999
 20
-324.8663429491
 10
187.9791261982
 20
-320.6515783386
 10
192.3134826566
 20
-316.7088656027
 10
196.8308999277
 20
-313.0503914406
 10
201.5174149335
 20
-309.6874639862
 10
206.3585419247
 20
-306.6304778557
 10
211.3393172553
 20
-303.8888820179
 10
216.4443456341
 20
-301.4711505886
 10
221.657847711
 20
-299.3847566368
 10
226.9637088497
 20
-297.6361490869
 10
232.3455289377
 20
-296.2307327845
 10
237.7866730775
 20
-295.1728517909
 10
243.2703230042
 20
-294.4657759557
 10
248.7795290704
 20
-294.1116908096
 10
254.2972626356
 20
-294.1116908096
 10
259.8064687017
 20
-294.4657759557
 10
265.2901186285
 20
-295.1728517909
 10
270.7312627682
 20
-296.2307327845
 10
276.1130828562
 20
-297.6361490869
 10
281.418943995
 20
-299.3847566368
 10
286.6324460719
 20
-301.4711505886
 10
291.7374744507
 20
-303.8888820179
 10
296.7182497812
 20
-306.6304778557
 10
301.5593767725
 20
-309.6874639862
 10
306.2458917783
 20
-313.0503914406
 10
310.7633090493
 20
-316.7088656027
 10
315.0976655077
 20
-320.6515783386
 10
319.2355639061
 20
-324.8663429491
 10
323.1642142375
 20
-329.3401318385
 10
326.871473269
 20
-334.0591167816
 10
330.3458820754
 20
-339.0087116665
 10
333.5767014582
 20
-344.1736175788
 10
336.5539451398
 20
-349.5378700906
 10
339.2684106305
 20
-355.0848886047
 10
341.7117076732
 20
-360.7975276046
 10
343.8762841767
 20
-366.6581296508
 10
345.755449559
 20
-372.648579958
 10
347.3433954277
 20
-378.7503623878
 10
348.6352135331
 20
-384.9446166802
 10
349.6269109394
 20
-391.2121967503
 10
350.3154223668
 20
-397.5337298672
 10
350.6986196659
 20
-403.8896765344
 10
350.7753183958
 20
-410.2603908849
 10
350.5452814853
 20
-416.6261814058
 10
350.009219965
 20
-422.9673718033
 10
349.1687907706
 20
-429.2643618214
 10
348.0265916205
 20
-435.4976878248
 10
346.5861529868
 20
-441.64808296
 10
344.8519271827
 20
-447.6965367081
 10
342.8292746009
 20
-453.6243536452
 10
340.5244471445
 20
-459.4132112289
 10
337.9445689031
 20
-465.0452164321
 10
335.0976141327
 20
-470.5029610495
 10
331.992382607
 20
-475.7695755053
 10
328.638472419
 20
-480.828780996
 10
325.0462503127
 20
-485.6649398073
 10
321.2268196409
 20
-490.2631036495
 10
317.1919860448
 20
-494.6090598616
 10
312.9542209639
 20
-498.6893753422
 10
308.5266230871
 20
-502.4914380699
 10
303.9228778658
 20
-506.0034960866
 10
299.1572152127
 20
-509.2146938223
 10
294.2443655179
 20
-512.1151056489
 10
289.1995141182
 20
-514.6957665595
 10
284.0382543602
 20
-516.9486998793
 10
278.776539402
 20
-518.8669419203
 10
273.4306329031
 20
-520.4445635065
 10
268.0170587541
 20
-521.6766882999
 10
262.5525500024
 20
-522.5595078734
 10
257.0539971314
 20
-523.0902934822
 10
251.538395853
 20
-523.2674044984
  0
ARC
  5
B4
330
1F
100
AcDbEntity
  8
0
  6
Continuous
 62
     7
370
    25
100
AcDbCircle
 10
132.5689544136
 20
-408.6674044984
 30
0.0
 40
114.6
100
AcDbArc
 50
303.8024391179
 51
56.1975608821
  0
LINE
  5
B5
330
1F
100
AcDbEntity
  8
0
  6
Continuous
 62
     7
370
    25
100
AcDbLine
 10
507.6466980652
 20
-425.1770203393
 30
0.0
 11
507.6466980652
 21
-641.1230775709
 31
0.0
  0
LINE
  5
B6
330
1F
100
AcDbEntity
  8
0
  6
Continuous
 62
     7
370
    25
100
AcDbLine
 10
787.6466980652
 20
-641.1230775709
 30
0.0
 11
787.6466980652
 21
-468.4955175924
 31
0.0
  0
LINE
  5
B7
330
1F
100
AcDbEntity
  8
0
  6
Continuous
 62
     7
370
    25
100
AcDbLine
 10
601.2504841536
 20
-179.3747697118
 30
0.0
 11
509.2918670992
 21
-416.3885465644
 31
0.0
  0
LINE
  5
B8
330
1F
100
AcDbEntity
  8
0
  6
Continuous
 62
     7
370
    25
100
AcDbLine
 10
787.6466980652
 20
-473.0437391886
 30
0.0
 11
862.2911095685
 21
-280.6555274253
 31
0.0
  0
LWPOLYLINE
  5
B9
330
1F
100
AcDbEntity
  8
0
  6
Continuous
 62
     7
370
    25
100
AcDbPolyline
 90
      126
 70
   128
 43
0.0
 10
548.6517486991
 20
-583.9745097433
 10
553.7507173501
 20
-581.1753000389
 10
559.0868753974
 20
-578.5275236233
 10
564.6467432427
 20
-576.0378690096
 10
570.4162761773
 20
-573.7126252812
 10
576.3808998602
 20
-571.5576662058
 10
582.5255471344
 20
-569.5784353969
 10
588.8346960876
 20
-567.7799325634
 10
595.2924092619
 20
-566.1667008794
 10
601.8823739135
 20
-564.7428155083
 10
608.5879432197
 20
-563.511873308
 10
615.3921783305
 20
-562.4769837455
 10
622.2778911574
 20
-561.6407610414
 10
629.2276877923
 20
-561.0053175671
 10
636.2240124457
 20
-560.5722585077
 10
643.2491917943
 20
-560.3426778082
 10
650.2854796254
 20
-560.3171554092
 10
657.3151016653
 20
-560.4957557826
 10
664.3203004785
 20
-560.8780277683
 10
671.283380325
 20
-561.4630057141
 10
678.1867518608
 20
-562.2492119149
 10
685.0129765701
 20
-563.2346603457
 10
691.744810817
 20
-564.4168616782
 10
698.3652494039
 20
-565.7928295692
 10
704.8575685283
 20
-567.3590882044
 10
711.2053680288
 20
-569.1116810786
 10
717.3926128128
 20
-571.0461809901
 10
723.403673363
 20
-573.1577012241
 10
729.2233652188
 20
-575.4409078974
 10
734.8369873336
 20
-577.8900334317
 10
740.2303592105
 20
-580.4988911233
 10
745.3898567243
 20
-583.2608907714
 10
750.3024465364
 20
-586.169055325
 10
754.9557190185
 20
-589.2160385082
 10
759.3379196006
 20
-592.394143377
 10
763.4379784637
 20
-595.6953417627
 10
767.2455385031
 20
-599.1112945515
 10
770.7509814919
 20
-602.6333727504
 10
773.9454523768
 20
-606.2526792842
 10
776.8208816471
 20
-609.9600714703
 10
779.3700057188
 20
-613.7461841144
 10
781.5863852835
 20
-617.6014531673
 10
783.4644215738
 20
-621.5161398849
 10
784.9993705073
 20
-625.4803554288
 10
786.1873546696
 20
-629.4840858464
 10
787.0253731097
 20
-633.5172173671
 10
787.5113089202
 20
-637.5695619509
 10
787.6439345851
 20
-641.6308830235
 10
787.4229150805
 20
-645.6909213355
 10
786.8488087208
 20
-649.7394208777
 10
785.9230657486
 20
-653.7661547889
 10
784.6480246708
 20
-657.7609511898
 10
783.026906352
 20
-661.7137188779
 10
781.0638058776
 20
-665.6144728191
 10
778.76368221
 20
-669.4533593704
 10
776.132345661
 20
-673.2206811711
 10
773.1764432152
 20
-676.9069216394
 10
769.9034417386
 20
-680.502769012
 10
766.3216091171
 20
-683.9991398663
 10
762.4399933708
 20
-687.3872020661
 10
758.2683997978
 20
-690.6583970723
 10
753.8173662057
 20
-693.8044615624
 10
749.0981362914
 20
-696.8174483044
 10
744.1226312395
 20
-699.6897462323
 10
738.9034196074
 20
-702.4140996723
 10
733.4536855767
 20
-704.9836266711
 10
727.7871956485
 20
-707.3918363806
 10
721.9182638682
 20
-709.632645454
 10
715.8617156668
 20
-711.7003934131
 10
709.6328504107
 20
-713.5898569472
 10
703.2474027541
 20
-715.2962631073
 10
696.721502892
 20
-716.8153013634
 10
690.0716358138
 20
-718.143134493
 10
683.3145996609
 20
-719.2764082744
 10
676.467463293
 20
-720.2122599597
 10
669.5475231709
 20
-720.9483255063
 10
662.5722596638
 20
-721.4827455487
 10
655.5592928927
 20
-721.8141700956
 10
648.5263382204
 20
-721.9417619397
 10
641.4911615007
 20
-721.8651987731
 10
634.4715342006
 20
-721.5846740008
 10
627.4851885079
 20
-721.1008962529
 10
620.5497725381
 20
-720.4150875938
 10
613.6828057539
 20
-719.5289804358
 10
606.9016347093
 20
-718.4448131626
 10
600.2233892309
 20
-717.1653244746
 10
593.6649391464
 20
-715.6937464714
 10
587.2428516699
 20
-714.0337964867
 10
580.9733495517
 20
-712.1896676982
 10
574.8722700983
 20
-710.1660185354
 10
568.9550251659
 20
-707.9679609116
 10
563.2365622288
 20
-705.6010473111
 10
557.7313266205
 20
-703.0712567632
 10
552.4532250441
 20
-700.3849797382
 10
547.4155904422
 20
-697.5490020052
 10
542.631148317
 20
-694.57048749
 10
538.1119845845
 20
-691.4569601787
 10
533.8695150446
 20
-688.2162851116
 10
529.9144565435
 20
-684.8566485151
 10
526.2567999022
 20
-681.3865371228
 10
522.9057846789
 20
-677.8147167373
 10
519.8698758287
 20
-674.1502100869
 10
517.1567423211
 20
-670.4022740335
 10
514.7732377666
 20
-666.5803761886
 10
512.7253831046
 20
-662.6941709981
 10
511.0183513938
 20
-658.7534753535
 10
509.6564547444
 20
-654.7682437939
 10
508.6431334255
 20
-650.7485433603
 10
507.9809471747
 20
-646.7045281647
 10
507.6715687319
 20
-642.6464137404
 10
507.715779614
 20
-638.5844512369
 10
508.1134681405
 20
-634.5289015237
 10
508.8636297155
 20
-630.4900092716
 10
509.9643693659
 20
-626.4779770727
 10
511.4129065277
 20
-622.5029396688
 10
513.2055820705
 20
-618.5749383492
 10
515.3378675401
 20
-614.7038955862
 10
517.8043765984
 20
-610.8995899698
 10
520.5988786295
 20
-607.171631506
 10
523.7143144787
 20
-603.5294373416
 10
527.1428142847
 20
-599.9822079751
 10
530.8757173594
 20
-596.5389040158
 10
534.9035940657
 20
-593.2082235482
 10
539.2162696374
 20
-589.9985801603
 10
543.8028498818
 20
-586.9180816898
 10
548.6517486991
 20
-583.9745097433
  0
LWPOLYLINE
  5
BA
330
1F
100
AcDbEntity
  8
0
  6
Continuous
 62
     7
370
    25
100
AcDbPolyline
 90
      114
 70
   128
 43
0.0
 10
566.6122609413
 20
-594.3428927634
 10
562.2340277563
 20
-597.0149878522
 10
558.1198002404
 20
-599.8234185185
 10
554.2822952351
 20
-602.7595040641
 10
550.7333742485
 20
-605.8141692169
 10
547.484006792
 20
-608.977972182
 10
544.544236474
 20
-612.2411338257
 10
541.9231499563
 20
-615.5935679023
 10
539.628848867
 20
-619.0249122303
 10
537.6684247594
 20
-622.524560721
 10
536.0479371919
 20
-626.0816961614
 10
534.7723949988
 20
-629.6853236497
 10
533.8457408079
 20
-633.32430458
 10
533.2708388543
 20
-636.9873910706
 10
533.0494661268
 20
-640.6632607312
 10
533.182306876
 20
-644.3405516593
 10
533.6689504987
 20
-648.0078975594
 10
534.5078928072
 20
-651.6539628754
 10
535.6965406792
 20
-655.2674778285
 10
537.2312200719
 20
-658.837273251
 10
539.1071873796
 20
-662.3523151098
 10
541.3186440946
 20
-665.8017386119
 10
543.858754731
 20
-669.174881787
 10
546.7196679524
 20
-672.4613184429
 10
549.89254084
 20
-675.6508903922
 10
553.3675662255
 20
-678.7337388507
 10
557.1340030046
 20
-681.7003349107
 10
561.1802093371
 20
-684.5415089935
 10
565.493678631
 20
-687.2484791931
 10
570.0610782
 20
-689.8128784196
 10
574.8682904738
 20
-692.2267802619
 10
579.9004566346
 20
-694.4827234879
 10
585.1420225454
 20
-696.5737351062
 10
590.5767868262
 20
-698.4933519199
 10
596.1879509321
 20
-700.2356405033
 10
601.9581710763
 20
-701.7952155423
 10
607.8696118393
 20
-703.1672564798
 10
613.9040012962
 20
-704.3475224159
 10
620.0426874951
 20
-705.3323652162
 10
626.2666961087
 20
-706.1187407881
 10
632.5567890832
 20
-706.7042184897
 10
638.8935241015
 20
-707.0869886431
 10
645.257314679
 20
-707.2658681276
 10
651.6284907035
 20
-707.2403040369
 10
657.9873592352
 20
-707.0103753883
 10
664.3142653759
 20
-706.576792878
 10
670.5896530211
 20
-705.9408966846
 10
676.7941253074
 20
-705.104652327
 10
682.9085045665
 20
-704.0706445884
 10
688.9138916024
 20
-702.8420695275
 10
694.7917241081
 20
-701.4227245994
 10
700.52383404
 20
-699.8169969181
 10
706.0925037749
 20
-698.0298496956
 10
711.4805208737
 20
-696.0668069017
 10
716.6712312844
 20
-693.9339361891
 10
721.6485908185
 20
-691.637830139
 10
726.3972147431
 20
-689.1855858836
 10
730.9024253335
 20
-686.5847831694
 10
735.1502972422
 20
-683.8434609284
 10
739.1277005405
 20
-680.9700924307
 10
742.8223413027
 20
-677.9735590937
 10
746.2227996059
 20
-674.86312303
 10
749.3185648284
 20
-671.6483984194
 10
752.1000681373
 20
-668.3393217914
 10
754.5587120654
 20
-664.9461213122
 10
756.686897085
 20
-661.47928517
 10
758.4780450983
 20
-657.9495291567
 10
759.9266197694
 20
-654.3677635459
 10
761.028143637
 20
-650.7450593697
 10
761.779211954
 20
-647.0926141992
 10
762.1775032112
 20
-643.4217175331
 10
762.2217863132
 20
-639.7437159025
 10
761.9119243835
 20
-636.0699777999
 10
761.2488751875
 20
-632.411858539
 10
760.2346881723
 20
-628.780665157
 10
758.8724981318
 20
-625.1876214644
 10
757.1665155174
 20
-621.6438333535
 10
755.1220134236
 20
-618.1602544701
 10
752.7453112891
 20
-614.7476523569
 10
750.0437553642
 20
-611.4165751716
 10
747.0256960033
 20
-608.1773190828
 10
743.7004618549
 20
-605.0398964454
 10
740.0783310273
 20
-602.014004853
 10
736.1704993192
 20
-599.1089971632
 10
731.9890456145
 20
-596.3338525882
 10
727.5468945471
 20
-593.6971489408
 10
722.8577765512
 20
-591.2070361209
 10
717.9361854219
 20
-588.8712109246
 10
712.7973335152
 20
-586.6968932537
 10
707.4571047281
 20
-584.6908037995
 10
701.9320054015
 20
-582.8591432694
 10
696.239113301
 20
-581.2075732214
 10
690.3960248296
 20
-579.7411985636
 10
684.4208006391
 20
-578.4645517763
 10
678.331909805
 20
-577.3815789013
 10
672.1481727399
 20
-576.4956273459
 10
665.8887030206
 20
-575.8094355354
 10
659.5728483095
 20
-575.3251244495
 10
653.2201305514
 20
-575.044191066
 10
646.850185633
 20
-574.9675037338
 10
640.4827026888
 20
-575.0952994892
 10
634.1373632437
 20
-575.4271833227
 10
627.8337803784
 20
-575.9621294004
 10
621.5914381062
 20
-576.6984842347
 10
615.4296311494
 20
-577.633971795
 10
609.3674053002
 20
-578.7657005429
 10
603.4234985512
 20
-580.0901723695
 10
597.6162831776
 20
-581.6032934085
 10
591.9637089492
 20
-583.3003866894
 10
586.4832476492
 20
-585.1762065941
 10
581.1918390692
 20
-587.2249550709
 10
576.10583865
 20
-589.4402995555
 10
571.2409669275
 20
-591.8153925451
 10
566.6122609413
 20
-594.3428927634
  0
ELLIPSE
  5
BB
330
1F
100
AcDbEntity
  8
0
  6
Continuous
 62
     7
370
    25
100
AcDbEllipse
 10
647.6466980652
 20
-446.8362689658
 30
0.0
 11
139.5881018125132
 21
-26.13036444077125
 31
0.0
210
0.0
220
0.0
230
1.0
 40
0.4106849769
 41
0.076727748978415
 42
3.218320402568241
  0
LWPOLYLINE
  5
BC
330
1F
100
AcDbEntity
  8
0
  6
Continuous
 62
     7
370
    25
100
AcDbPolyline
 90
       51
 70
   128
 43
0.0
 10
632.7758474949
 20
-172.8665807409
 10
637.2084353822
 20
-173.3239220081
 10
641.8798960016
 20
-173.9244702337
 10
646.7784288379
 20
-174.6667083808
 10
651.8916597722
 20
-175.5487614913
 10
657.2066723393
 20
-176.5684014227
 10
662.7100403562
 20
-177.7230524758
 10
668.3878618377
 20
-179.009797902
 10
674.2257941139
 20
-180.4253872707
 10
680.2090900613
 20
-181.9662446802
 10
686.322635355
 20
-183.6284777909
 10
692.550986649
 20
-185.4078876579
 10
698.8784105874
 20
-187.2999793373
 10
705.2889235483
 20
-189.2999732413
 10
711.7663320194
 20
-191.4028172118
 10
718.2942735048
 20
-193.6031992824
 10
724.8562578578
 20
-195.895561097
 10
731.4357089365
 20
-198.2741119507
 10
738.0160064763
 20
-200.7328434177
 10
744.5805280747
 20
-203.2655445288
 10
751.1126911803
 20
-205.8658174613
 10
757.5959949821
 20
-208.5270937
 10
764.0140620922
 20
-211.2426506302
 10
770.350679916
 20
-214.0056285195
 10
776.589841607
 20
-216.8090478458
 10
782.7157865011
 20
-219.6458269287
 10
788.71303993
 20
-222.508799818
 10
794.5664523111
 20
-225.3907343956
 10
800.2612374165
 20
-228.2843506449
 10
805.783009725
 20
-231.1823390399
 10
811.1178207603
 20
-234.0773790104
 10
816.252194327
 20
-236.9621574343
 10
821.1731605517
 20
-239.8293871109
 10
825.8682886466
 20
-242.6718251692
 10
830.3257183108
 20
-245.482291364
 10
834.53418969
 20
-248.2536862136
 10
838.4830718203
 20
-250.9790089343
 10
842.1623894827
 20
-253.6513751244
 10
845.5628484015
 20
-256.2640341547
 10
848.6758587223
 20
-258.8103862221
 10
851.4935567109
 20
-261.28399902
 10
854.0088246177
 20
-263.6786239879
 10
856.2153086575
 20
-265.9882120953
 10
858.1074350602
 20
-268.2069291222
 10
859.6804241504
 20
-270.3291703969
 10
860.930302421
 20
-272.3495749536
 10
861.853912571
 20
-274.2630390752
 10
862.4489214812
 20
-276.0647291852
 10
862.7138261072
 20
-277.750094058
 10
862.6479572771
 20
-279.3148763157
 10
862.2911095685
 20
-280.6555274253
  0
LWPOLYLINE
  5
BD
330
1F
100
AcDbEntity
  8
0
  6
Continuous
 62
     7
370
    25
100
AcDbPolyline
 90
       14
 70
   128
 43
0.0
 10
601.2504841536
 20
-179.3747697118
 10
601.6120475275
 20
-178.6029007722
 10
602.5022958008
 20
-177.3561777517
 10
603.7190875268
 20
-176.2424758616
 10
605.2593489839
 20
-175.2646084097
 10
607.119189338
 20
-174.4250455738
 10
609.293910471
 20
-173.7259081627
 10
611.7780188485
 20
-173.168962258
 10
614.5652393972
 20
-172.7556147536
 10
617.6485313561
 20
-172.486909801
 10
621.0201060621
 20
-172.3635261723
 10
624.6714466248
 20
-172.3857755452
 10
628.5933294412
 20
-172.5536017159
 10
632.7758474949
 20
-172.8665807409
  0
ENDSEC
  0
SECTION
  2
OBJECTS
  0
DICTIONARY
  5
C
330
0
100
AcDbDictionary
281
     1
  3
ACAD_GROUP
350
D
  3
ACAD_LAYOUT
350
1A
  3
ACAD_MLINESTYLE
350
17
  3
ACAD_PLOTSETTINGS
350
19
  3
ACAD_PLOTSTYLENAME
350
E
  3
ACAD_SCALELIST
350
47
  3
DWGPROPS
350
BE
  0
DICTIONARY
  5
D
102
{ACAD_REACTORS
330
C
102
}
330
C
100
AcDbDictionary
281
     1
  0
DICTIONARY
  5
1A
102
{ACAD_REACTORS
330
C
102
}
330
C
100
AcDbDictionary
281
     1
  3
Layout1
350
1E
  3
Layout2
350
26
  3
Model
350
22
  0
DICTIONARY
  5
17
102
{ACAD_REACTORS
330
C
102
}
330
C
100
AcDbDictionary
281
     1
  3
Standard
350
18
  0
DICTIONARY
  5
19
102
{ACAD_REACTORS
330
C
102
}
330
C
100
AcDbDictionary
281
     1
  0
ACDBDICTIONARYWDFLT
  5
E
102
{ACAD_REACTORS
330
C
102
}
330
C
100
AcDbDictionary
281
     1
  3
Normal
350
F
100
AcDbDictionaryWithDefault
340
F
  0
DICTIONARY
  5
47
102
{ACAD_REACTORS
330
C
102
}
330
C
100
AcDbDictionary
281
     1
  3
A0
350
48
  3
A1
350
49
  3
A2
350
4A
  3
A3
350
4B
  3
A4
350
4C
  3
A5
350
4D
  3
A6
350
4E
  3
A7
350
4F
  3
A8
350
50
  3
A9
350
51
  3
B0
350
52
  3
B1
350
53
  3
B2
350
54
  3
B3
350
55
  3
B4
350
56
  3
B5
350
57
  3
B6
350
58
  3
B7
350
59
  3
B8
350
5A
  3
B9
350
5B
  3
C0
350
5C
  3
C1
350
5D
  3
C2
350
5E
  3
C3
350
5F
  3
C4
350
60
  3
C5
350
61
  3
C6
350
62
  3
C7
350
63
  3
C8
350
64
  3
C9
350
65
  3
D0
350
66
  3
D1
350
67
  3
D2
350
68
  0
XRECORD
  5
BE
102
{ACAD_REACTORS
330
C
102
}
330
C
100
AcDbXrecord
280
     1
  1
DWGPROPS COOKIE
  2

  3

  4

  6

  7

  8
b.kav
  9

300
=
301
=
302
=
303
=
304
=
305
=
306
=
307
=
308
=
309
=
 40
0.0
 41
2460682.3946075
 42
2460682.394607685
  1

 90
        0
  0
LAYOUT
  5
1E
102
{ACAD_REACTORS
330
1A
102
}
330
1A
100
AcDbPlotSettings
  1

  2
none_device
  4

  6

 40
0.0
 41
0.0
 42
0.0
 43
0.0
 44
0.0
 45
0.0
 46
0.0
 47
0.0
 48
0.0
 49
0.0
140
0.0
141
0.0
142
1.0
143
1.0
 70
   688
 72
     1
 73
     0
 74
     5
  7

 75
    16
147
1.0
148
0.0
149
0.0
100
AcDbLayout
  1
Layout1
 70
     1
 71
     1
 10
0.0
 20
0.0
 11
420.0
 21
297.0
 12
0.0
 22
0.0
 32
0.0
 14
1.0000000000E+20
 24
1.0000000000E+20
 34
1.0000000000E+20
 15
-1.0000000000E+20
 25
-1.0000000000E+20
 35
-1.0000000000E+20
146
0.0
 13
0.0
 23
0.0
 33
0.0
 16
1.0
 26
0.0
 36
0.0
 17
0.0
 27
1.0
 37
0.0
 76
     0
330
1B
  0
LAYOUT
  5
26
102
{ACAD_REACTORS
330
1A
102
}
330
1A
100
AcDbPlotSettings
  1

  2
none_device
  4

  6

 40
0.0
 41
0.0
 42
0.0
 43
0.0
 44
0.0
 45
0.0
 46
0.0
 47
0.0
 48
0.0
 49
0.0
140
0.0
141
0.0
142
1.0
143
1.0
 70
   688
 72
     1
 73
     0
 74
     5
  7

 75
    16
147
1.0
148
0.0
149
0.0
100
AcDbLayout
  1
Layout2
 70
     1
 71
     2
 10
0.0
 20
0.0
 11
0.0
 21
0.0
 12
0.0
 22
0.0
 32
0.0
 14
0.0
 24
0.0
 34
0.0
 15
0.0
 25
0.0
 35
0.0
146
0.0
 13
0.0
 23
0.0
 33
0.0
 16
1.0
 26
0.0
 36
0.0
 17
0.0
 27
1.0
 37
0.0
 76
     0
330
23
  0
LAYOUT
  5
22
102
{ACAD_REACTORS
330
1A
102
}
330
1A
100
AcDbPlotSettings
  1

  2
none_device
  4
Letter_(8.50_x_11.00_Inches)
  6

 40
6.35
 41
6.35
 42
6.35000508
 43
6.35000508
 44
215.9
 45
279.4
 46
0.0
 47
0.0
 48
0.0
 49
0.0
140
0.0
141
0.0
142
1.0
143
1.0
 70
  1712
 72
     1
 73
     0
 74
     0
  7

 75
     0
147
1.0
148
0.0
149
0.0
100
AcDbLayout
  1
Model
 70
     1
 71
     0
 10
0.0
 20
0.0
 11
279.4
 21
215.9
 12
0.0
 22
0.0
 32
0.0
 14
0.0
 24
0.0
 34
0.0
 15
279.4
 25
215.9
 35
0.0
146
0.0
 13
0.0
 23
0.0
 33
0.0
 16
1.0
 26
0.0
 36
0.0
 17
0.0
 27
1.0
 37
0.0
 76
     0
330
1F
331
29
  0
MLINESTYLE
  5
18
102
{ACAD_REACTORS
330
17
102
}
330
17
100
AcDbMlineStyle
  2
Standard
 70
     0
  3

 62
   256
 51
90.0
 52
90.0
 71
     2
 49
0.5
 62
   256
  6
BYLAYER
 49
-0.5
 62
   256
  6
BYLAYER
  0
ACDBPLACEHOLDER
  5
F
102
{ACAD_REACTORS
330
E
102
}
330
E
  0
SCALE
  5
48
102
{ACAD_REACTORS
330
47
102
}
330
47
100
AcDbScale
 70
     0
300
1:1
140
1.0
141
1.0
290
     1
  0
SCALE
  5
49
102
{ACAD_REACTORS
330
47
102
}
330
47
100
AcDbScale
 70
     0
300
1:2
140
1.0
141
2.0
290
     0
  0
SCALE
  5
4A
102
{ACAD_REACTORS
330
47
102
}
330
47
100
AcDbScale
 70
     0
300
1:4
140
1.0
141
4.0
290
     0
  0
SCALE
  5
4B
102
{ACAD_REACTORS
330
47
102
}
330
47
100
AcDbScale
 70
     0
300
1:5
140
1.0
141
5.0
290
     0
  0
SCALE
  5
4C
102
{ACAD_REACTORS
330
47
102
}
330
47
100
AcDbScale
 70
     0
300
1:8
140
1.0
141
8.0
290
     0
  0
SCALE
  5
4D
102
{ACAD_REACTORS
330
47
102
}
330
47
100
AcDbScale
 70
     0
300
1:10
140
1.0
141
10.0
290
     0
  0
SCALE
  5
4E
102
{ACAD_REACTORS
330
47
102
}
330
47
100
AcDbScale
 70
     0
300
1:16
140
1.0
141
16.0
290
     0
  0
SCALE
  5
4F
102
{ACAD_REACTORS
330
47
102
}
330
47
100
AcDbScale
 70
     0
300
1:20
140
1.0
141
20.0
290
     0
  0
SCALE
  5
50
102
{ACAD_REACTORS
330
47
102
}
330
47
100
AcDbScale
 70
     0
300
1:30
140
1.0
141
30.0
290
     0
  0
SCALE
  5
51
102
{ACAD_REACTORS
330
47
102
}
330
47
100
AcDbScale
 70
     0
300
1:40
140
1.0
141
40.0
290
     0
  0
SCALE
  5
52
102
{ACAD_REACTORS
330
47
102
}
330
47
100
AcDbScale
 70
     0
300
1:50
140
1.0
141
50.0
290
     0
  0
SCALE
  5
53
102
{ACAD_REACTORS
330
47
102
}
330
47
100
AcDbScale
 70
     0
300
1:100
140
1.0
141
100.0
290
     0
  0
SCALE
  5
54
102
{ACAD_REACTORS
330
47
102
}
330
47
100
AcDbScale
 70
     0
300
2:1
140
2.0
141
1.0
290
     0
  0
SCALE
  5
55
102
{ACAD_REACTORS
330
47
102
}
330
47
100
AcDbScale
 70
     0
300
4:1
140
4.0
141
1.0
290
     0
  0
SCALE
  5
56
102
{ACAD_REACTORS
330
47
102
}
330
47
100
AcDbScale
 70
     0
300
8:1
140
8.0
141
1.0
290
     0
  0
SCALE
  5
57
102
{ACAD_REACTORS
330
47
102
}
330
47
100
AcDbScale
 70
     0
300
10:1
140
10.0
141
1.0
290
     0
  0
SCALE
  5
58
102
{ACAD_REACTORS
330
47
102
}
330
47
100
AcDbScale
 70
     0
300
100:1
140
100.0
141
1.0
290
     0
  0
SCALE
  5
59
102
{ACAD_REACTORS
330
47
102
}
330
47
100
AcDbScale
 70
     0
300
1/128" = 1'-0"
140
0.0078125
141
12.0
290
     0
  0
SCALE
  5
5A
102
{ACAD_REACTORS
330
47
102
}
330
47
100
AcDbScale
 70
     0
300
1/64" = 1'-0"
140
0.015625
141
12.0
290
     0
  0
SCALE
  5
5B
102
{ACAD_REACTORS
330
47
102
}
330
47
100
AcDbScale
 70
     0
300
1/32" = 1'-0"
140
0.03125
141
12.0
290
     0
  0
SCALE
  5
5C
102
{ACAD_REACTORS
330
47
102
}
330
47
100
AcDbScale
 70
     0
300
1/16" = 1'-0"
140
0.0625
141
12.0
290
     0
  0
SCALE
  5
5D
102
{ACAD_REACTORS
330
47
102
}
330
47
100
AcDbScale
 70
     0
300
3/32" = 1'-0"
140
0.09375
141
12.0
290
     0
  0
SCALE
  5
5E
102
{ACAD_REACTORS
330
47
102
}
330
47
100
AcDbScale
 70
     0
300
1/8" = 1'-0"
140
0.125
141
12.0
290
     0
  0
SCALE
  5
5F
102
{ACAD_REACTORS
330
47
102
}
330
47
100
AcDbScale
 70
     0
300
3/16" = 1'-0"
140
0.1875
141
12.0
290
     0
  0
SCALE
  5
60
102
{ACAD_REACTORS
330
47
102
}
330
47
100
AcDbScale
 70
     0
300
1/4" = 1'-0"
140
0.25
141
12.0
290
     0
  0
SCALE
  5
61
102
{ACAD_REACTORS
330
47
102
}
330
47
100
AcDbScale
 70
     0
300
3/8" = 1'-0"
140
0.375
141
12.0
290
     0
  0
SCALE
  5
62
102
{ACAD_REACTORS
330
47
102
}
330
47
100
AcDbScale
 70
     0
300
1/2" = 1'-0"
140
0.5
141
12.0
290
     0
  0
SCALE
  5
63
102
{ACAD_REACTORS
330
47
102
}
330
47
100
AcDbScale
 70
     0
300
3/4" = 1'-0"
140
0.75
141
12.0
290
     0
  0
SCALE
  5
64
102
{ACAD_REACTORS
330
47
102
}
330
47
100
AcDbScale
 70
     0
300
1" = 1'-0"
140
1.0
141
12.0
290
     0
  0
SCALE
  5
65
102
{ACAD_REACTORS
330
47
102
}
330
47
100
AcDbScale
 70
     0
300
1-1/2" = 1'-0"
140
1.5
141
12.0
290
     0
  0
SCALE
  5
66
102
{ACAD_REACTORS
330
47
102
}
330
47
100
AcDbScale
 70
     0
300
3" = 1'-0"
140
3.0
141
12.0
290
     0
  0
SCALE
  5
67
102
{ACAD_REACTORS
330
47
102
}
330
47
100
AcDbScale
 70
     0
300
6" = 1'-0"
140
6.0
141
12.0
290
     0
  0
SCALE
  5
68
102
{ACAD_REACTORS
330
47
102
}
330
47
100
AcDbScale
 70
     0
300
1'-0" = 1'-0"
140
12.0
141
12.0
290
     0
  0
ENDSEC
  0
EOF
